Song:  We  Will  Rock  You
Tabbed  by:  Sarasman
 
Its  easiest  to  put  your  index  finger  over  the  e,b,g,d  strings  on
the  14th  fret.  The  whole  solo  is  based  around  this  finger  positioning.
When  you  come  to  the  part  where  you  bend,  you  do  the  first  bend  normally,  but
the  second  bend  you  have  to  pre-bend  the  16  to  make  it  sound  like  18,  then  pluck
it  and  release  down  to  16.
 
E|-------------------------------------|
B|-------------------------------------|
G|----------5~-----2-x-2--x-x-x-2-x-2--|
D|----------5~-----2-x-2—-x-x-x-2-x-2--|
A|--(7)-----3~-----0-x-0--x-x-x-0-x-0--|
E|-------------------3----x-x-x---3----|
 
E|----------------------------------------------------|
B|--14h15-15--15p14-----14-14h15-15-15-15p14-15p14----|
G|--14----14--14--------14-14----14-14-14----14-------|
D|--14h16-16--16p14-----14-14h16-16-16-16p14-16p14----|
A|----------------------------------------------------|
E|----------------------------------------------------|
Just  play  a  D  for  this  bit  if  on  acoustic
 
E|-----17p15----14--------------------------------------|
B|--14--------------17---15p14----15~------15p14--------|
G|-----------14----------------14----------------16p14--|
D|------------------------------------------------------|
A|------------------------------------------------------|
E|------------------------------------------------------|
 
E|------------------------------------|
B|--17-17-14—17b19-17-14--------------|
G|-----------------------18r16-16-14--|
D|------------------------------------|
A|------------------------------------|
E|------------------------------------|
 
E|--------------------------------------------------------|
B|--14-15p14-15p14-14-14~~---14-15p14-15p14-14-14-----14--|
G|--14-14----14----14-14~~---14-14----14----14-14--14-14--|  (x3)
D|--14-16p14-16p14-14-14~~---14-16p14-16p14-14-14--14-14--|
A|--0----------------------------------------------0------|
E|--------------------------------------------------------|
 
 
************************************
 
|  x        Dead  note
|  (n)    Harmonic
|  h        Hammer-on
|  p        Pull-off
|  r        Release
|  b        Bend
|  ~        Vibrato
 
************************************

"We  Will  Rock  You"
Buddy  you're  a  boy  make  a  big  noise
Playin'  in  the  street  gonna  be  a  big  man  some  day
You  got  mud  on  yo'  face
You  big  disgrace
Kickin'  your  can  all  over  the  place
Singin'
We  will  we  will  rock  you
We  will  we  will  rock  you
Buddy  you're  a  young  man  hard  man
Shoutin'  in  the  street  gonna  take  on  the  world  some  day
You  got  blood  on  yo'  face
You  big  disgrace
Wavin'  your  banner  all  over  the  place
We  will  we  will  rock  you
(Sing  it  out!)
We  will  we  will  rock  you
Buddy  you're  an  old  man  poor  man
Pleadin'  with  your  eyes  gonna  make  you  some  peace  some  day
You  got  mud  on  your  face
Big  disgrace
Somebody  better  put  you  back  into  your  place
We  will  we  will  rock  you
(Sing  it!)
We  will  we  will  rock  you
(Everybody)
We  will  we  will  rock  you
We  will  we  will  rock  you
(Alright)