[Intro - Just bass drum - BPM 76] 
e|-0--------2-------------------|
B|-0-0-3--0---------0-3-0-3-3s5-|
G|------------------------------| 
D|-2----------------------------| 
A|-2----------------------------|
E|-0-------------0--------------|

e|-0--------2-------------------|
B|-0-0-3--0---------0-3-0-3-3s5-|
G|------------------------------| 
D|-2----------------------------| 
A|-2----------------------------|
E|-0-------------0--------------|

e|-0------------------2---------| 
B|-0-0-3-0-3-3s5----0--0-3-3s5--|
G|------------------------------| 
D|-2----------------------------| 
A|-2----------------------------|
E|-0-------------0--------------|

e|-0----------------------------| 
B|-0-0-3-0-3-3s5----------------|
G|------------------------------| 
D|-2--------------5p2-----------| 
A|-2------------------5p2-------|
E|-0----------------------3b4-0-|

[Verse 1 - Just bass drum] 
[Em] Listen to the wind bl [A] ow, 
watch the (finger pick) [Bm/D] sunrise [Am/C] [Em] (stop)
[Em] Run in the shad [A] ow, damn your love,
 damn your lies [Bm/D] [Am/C] [Em]
 
(finger pick section) 
e|-------2-----------0---------3-0-----------0-------|
B|-----3--3--------1--1------------3-0------0--------|
G|----4----4------2----2----------------2-0----------|
D|-0--------------------------------------------2----|
A|--------------3-------------------------------2----|
E|-----------------------------0----------------0----|
 
[Chorus - Bass drum on all 4,snare on 2 and 4]
And if [Am7] you don't love me now, 
You will never love me again
I can [Em] still here you [C] saying
You would [Dsus4] never break the chain
And if [Am7] you don't love me now
You will never love me again
I can [Em] still hear you [C] saying
You would [Dsus4] never break the chain [Em] 
(Stop - bass drum back in for second half of phrase)

e|------0-----------------------|
B|-----0---3---------0-3-0-3-3s5|
G|---0-------------0------------| 
D|------------------------------| 
A|------------------------------|
E|-0-------------0--------------|

e|------0-----------------------|
B|-----0---3--------------------|
G|---0--------------------------| 
D|----------------5p2-----------| 
A|--------------------5p2-------|
E|-0----------------------3b4-0-|
 
[Verse - Just bass drum]
[Em] Listen to the wind b [A] low
 Down comes the night [Bm/D] [Am/C] [Em] (stop)
[Em] Run in the shad [A] ow
 Damn your love, damn your lies [Bm/D] [Am/C] 
[Em] Break The sil [A] ence
 Damn the dark damn the night [Bm/D] [Am/C] 
[Em]
 
[Chorus - Bass drum on all 4,snare on 2 and 4]
And if [Am7] you don't love me now, 
You will never love me again
I can [Em] still here you [C] saying
You would [Dsus4] never break the chain

And if [Am7] you don't love me now 
You will never love me again
I can [Em] still hear you [C] saying
You would [Dsus4] never break the chain

And if [Am7] you don't love me now,
You will never love me again
I can s [Em] till here you [C] saying
You would [Dsus4] never break the chain
(Stop) 

[Em] 
[Ahead of bass section - Bass drum stabs only] 
e|-0---2--2-----2------2------2-----2--------|
B|-0---1----1-----1------1------1-----1------|
G|-------------------------------------------|
D|-2---2------2-----2------2------2----------| 4x
A|-2-----------------------------------------|
E|-0-----------------------------------------|

Left hand tap - play snare roll with right hand
then at some point start to play notes with right hand pick 
e|------------------------------------------|
B|------------------------------------------|
G|------------------------------------------|
D|------------------------------------------|
A|------------------------------------------|
E|-h5----h5h7h8-p7p5s3h5s7----p0------------|

[Vamp - chords follow bass line]
[Am] [Am] [C] [G-G/B] [Em] [Em] [Em] [Em]

Implying solo - apply some vibrato on 55 to help mute D string
e|-0--0--0--0--
B|-5--5--5--0--
G|-5--5--5--0--
D|-X--0--0--2--
A|-0--3--X--2--
E|(0)----3--0--
 
[Outro]
[Am] Chains [C] [G-G/B] keep us to [Em] gether 
Running in the shadows
[Am] Chains [C] [G-G/B] keep us to [Em] gether 
Running in the shadows
[Am] Chains [C] [G-G/B] keep us to [Em] gether 
Running in the shadows
[Am] Chains [C] [G-G/B] keep us to [Em] gether 
Running in the shadows
[Repeat to end]

[Notes]
Standard Tuning
Chords Used:
 
Em 022000
A x07650
A7 x07680
Bm/D xx0432
Am/C x3x210
Am7 x02013
C x32010
Dsus4 xx0233G 3x0033