[Intro - BPM 125 3/4]
E-10---8-T13-8----6--3456---5--T10----
B-7----6-----10---X-----8---6------3--
G-7----6-----8----X-----8---5------3--
D-8----4-----X----5-----8---7------3--
A------4-----0----6-----6---8------1--
E------4---------*6---------X---------

*Rake 655 with thumb and pluck high Bb - 
careful not to play open B as could sound very nasty

With F7 you could play F7 as barre and play 
high A with right hand 1st finger
and strum with RH little finger and slide up to 10 

[Verse] 
[Gm] Slow down [Bb] you crazy child
You're so [F] ambitious for a [Ab] juvenile
But then if [Eb] you're so smart tell m [Bb] e why
You are still so af [C] raid [C/D] [D] 

[Verse]
[Gm] Where's the fire, what's the [Bb] hurry about
You better [F] cool it off before you b [Ab] urn it out
You got [Eb] so much to do and only
[Bb] So many hours in a [Am7] day [C/D] [D] 
[Eb] But you know that when the [F] truth is told
That you can [Bb] get what you [F/A] want
Or you ca [Gm] n just get [Bb/F] old
You're gonna [Eb] kick off before you [Am7] even get 
[D7] halfway [Gm7] through .... ooh [C7] ooh 
When will you [Gb9 run] realize
[F] Vienna waits for y [Bb] ou 
 
[Verse] 
[Gm] Slow down you're d [Bb] oing fine
You can't be [F] everything you want to be
[Ab] Before your time
Although it's [Eb] so romantic on the [Bb] borderline 
[C] tonight [C/D] [D] 
 
[Verse] 
[Gm] Too bad but it's [Bb] the life you lead
You're s [F] o ahead of yourself
That yo [Ab] u forgot what you need
Though you can [Eb] see when you're wrong 
But you know you [Bb] can't always see when you're 
[Am7] right you're [C/D] right [D] 
 
[Verse] 
[Eb] You got your passion you [F] got your pride
But don't you [Bb] know only [F/A] fools are s 
[Gm] atisfied [Bb/F] 
[Eb] Dream on, but don't [Am7] imagine they'll 
[D7] all com [Gm7] e true .... ooh [C7] ooh 
When will you [Gb9 - run] realize
[F] Vienna waits for you [Bb] 
 
[Accordion Solo. Same chords as the verse.]
(Use fingers tapping snare whilst plucking lines with thumb
to play solo and drums at the same time)
Gm Bb F Ab
Eb Bb Am7 C/D D

[Verse] 
[Eb] Slow down you [F] crazy child
Take the [Bb] phone off the [F/A] hook
And disa [Gm] ppear for a [Bb/F] while
[Eb] It's alright you can [Am7] afford to lose a 
[D7] day o [Gm7] r two .... ooh [C7] ooh 
When will you [Gb9 - run] realize
[F] Vienna waits for yo [Bb] u 
[Eb] But you know that when the [F] truth is told
That you can [Bb] get what you [F/A] want
Or you ca [Gm] n just get [Bb/F] old
You're gonna [Eb] kick off before you [Am7] 
even get [D7] halfway [Gm7] through .... ooh [C7] ooh 
When will you [Gb9 - run] realize
[F] Vienna waits for y [Bb] ou [G7] (E - 6 5 4 3 run) 
[G7] When will you [Gb9 - stop] realize (run - B 3 E 2h3 B s3 1)
[F] Vienna waits for yo [Bb] u 

[End with Intro]

[END]

[Gb9 - run]
E-0
B--2-------
G---3------
D----4-----
A----------
E----------

[Piano run at end]
B 3 E 2h3 B s3 1

[Accordion Solo]
C----------------------------Gm7-------------Bb
E---------------------------------3----3-----------6------------------------------------
B-------------3-------------------3--3--------6-6--6-------------------------------------
G-0h1h2h3-23-5--5p4p3-3-2----3-3--3-5---------7--8-7----------------------------------------------
D-------------------------------7-3----------------8------------------------------------
A---------------------------------5----------------8-------------------------------
E----------------------------3----3-----------6----6-------------------------------------
Rh - S = snare hit for thumb = p is pinky - t - is thumb - the rest you know, s = strum
p---------------------------------s----------------s---------------------------------------
i---------------------------------s-----X----------s---------------------------------------
m---------------------------------s---X-------X-X--s---------------------------------------
a----------------------------X-X--s-X---------X--X-s---------------------------------------
t----------------------------X--X-S-----------X----S----------------------------------------


C--F--------F-------------------Ab-----Eb----------------------------------------------------
E-----------1-------------------4--------------6----------------------------------------------
B--1--1-3---1-------4----4-6----5------8---8-9-8---10-8-----------------------------------------
G--2-4------2-------5--7--------5------8-------8--------------------------------------------
D-----------3-------------------6------8-------8-------------------------------------------
A-----------3-------------------6------6-------6--------------------------------------------
E--1--------1-------4-----------4------------------------------------------------------------
Rh - S = snare hit for thumb = p is pinky - t - is thumb - the rest you know, s = strum
p-----------s-------------------s--------------s-------------------------------------------
i-----------s-------------------s--------------s-------------------------------------------
m--X--X-X---s-------------------s--------------s---------------------------------------------
a--X-X------s-------------------s--------------s--------------------------------------------
t--X--------S-------------------S--------------S-------------------------------------------


C--Bb------------C----------C/D-------Eb-------------------------------------------------------
E--6-------6-----0----------------5---6------------------------------------------------------
B--6--8--6-6-----1-3-3-5----8--6--5---8-----------------------------------------------------
G--7-------7-----0-----5----5--5--5---8----------------------------------------------------
D--8-------8-----2-----5----5--5--5---8----------------------------------------------------
A--8-------8-----3-----3----5--5--5---6---------------------------------------------------
E--6-------6------------------------------------------------------------------------------
Rh - S = snare hit for thumb = p is pinky - t - is thumb - the rest you know, s = strum
p----------s----------------------s--------------------------------------------------------
i----------s----------------------s--------------------------------------------------------
m----------s----------------------s--------------------------------------------------------
a----------s----------------------s--------------------------------------------------------t----------S----------------------S--------------------------------------------------------